ISO-10303-21;
HEADER;
/* Generated by software containing ST-Developer
 * from STEP Tools, Inc. (www.steptools.com) 
 */

FILE_DESCRIPTION(
/* description */ (''),
/* implementation_level */ '2;1');

FILE_NAME(
/* name */ 'C:/Users/cmmin/Downloads/Climbing wall hook v6.step',
/* time_stamp */ '2022-04-18T07:39:30-05:00',
/* author */ (''),
/* organization */ (''),
/* preprocessor_version */ 'ST-DEVELOPER v18.1',
/* originating_system */ 'Autodesk Translation Framework v10.14.0.1471',

/* authorisation */ '');

FILE_SCHEMA (('AUTOMOTIVE_DESIGN { 1 0 10303 214 3 1 1 }'));
ENDSEC;

DATA;
#10=MECHANICAL_DESIGN_GEOMETRIC_PRESENTATION_REPRESENTATION('',(#13),#444);
#11=SHAPE_REPRESENTATION_RELATIONSHIP('SRR','None',#451,#12);
#12=ADVANCED_BREP_SHAPE_REPRESENTATION('',(#14),#443);
#13=STYLED_ITEM('',(#460),#14);
#14=MANIFOLD_SOLID_BREP('Body1',#256);
#15=FACE_BOUND('',#47,.T.);
#16=FACE_BOUND('',#48,.T.);
#17=PLANE('',#273);
#18=PLANE('',#277);
#19=PLANE('',#278);
#20=PLANE('',#279);
#21=PLANE('',#280);
#22=PLANE('',#284);
#23=PLANE('',#288);
#24=PLANE('',#292);
#25=PLANE('',#293);
#26=PLANE('',#294);
#27=FACE_OUTER_BOUND('',#42,.T.);
#28=FACE_OUTER_BOUND('',#43,.T.);
#29=FACE_OUTER_BOUND('',#44,.T.);
#30=FACE_OUTER_BOUND('',#45,.T.);
#31=FACE_OUTER_BOUND('',#46,.T.);
#32=FACE_OUTER_BOUND('',#49,.T.);
#33=FACE_OUTER_BOUND('',#50,.T.);
#34=FACE_OUTER_BOUND('',#51,.T.);
#35=FACE_OUTER_BOUND('',#52,.T.);
#36=FACE_OUTER_BOUND('',#53,.T.);
#37=FACE_OUTER_BOUND('',#54,.T.);
#38=FACE_OUTER_BOUND('',#55,.T.);
#39=FACE_OUTER_BOUND('',#56,.T.);
#40=FACE_OUTER_BOUND('',#57,.T.);
#41=FACE_OUTER_BOUND('',#58,.T.);
#42=EDGE_LOOP('',(#170,#171,#172,#173));
#43=EDGE_LOOP('',(#174));
#44=EDGE_LOOP('',(#175,#176,#177,#178));
#45=EDGE_LOOP('',(#179));
#46=EDGE_LOOP('',(#180,#181,#182,#183));
#47=EDGE_LOOP('',(#184));
#48=EDGE_LOOP('',(#185));
#49=EDGE_LOOP('',(#186,#187,#188,#189));
#50=EDGE_LOOP('',(#190,#191,#192,#193));
#51=EDGE_LOOP('',(#194,#195,#196,#197));
#52=EDGE_LOOP('',(#198,#199,#200,#201));
#53=EDGE_LOOP('',(#202,#203,#204,#205));
#54=EDGE_LOOP('',(#206,#207,#208,#209));
#55=EDGE_LOOP('',(#210,#211,#212,#213));
#56=EDGE_LOOP('',(#214,#215,#216,#217));
#57=EDGE_LOOP('',(#218,#219,#220,#221,#222,#223,#224,#225,#226));
#58=EDGE_LOOP('',(#227,#228,#229,#230,#231,#232,#233,#234,#235));
#59=LINE('',#375,#82);
#60=LINE('',#382,#83);
#61=LINE('',#388,#84);
#62=LINE('',#390,#85);
#63=LINE('',#392,#86);
#64=LINE('',#393,#87);
#65=LINE('',#396,#88);
#66=LINE('',#398,#89);
#67=LINE('',#399,#90);
#68=LINE('',#402,#91);
#69=LINE('',#404,#92);
#70=LINE('',#405,#93);
#71=LINE('',#411,#94);
#72=LINE('',#414,#95);
#73=LINE('',#416,#96);
#74=LINE('',#417,#97);
#75=LINE('',#423,#98);
#76=LINE('',#426,#99);
#77=LINE('',#428,#100);
#78=LINE('',#429,#101);
#79=LINE('',#435,#102);
#80=LINE('',#437,#103);
#81=LINE('',#438,#104);
#82=VECTOR('',#301,1.5);
#83=VECTOR('',#310,1.5);
#84=VECTOR('',#317,10.);
#85=VECTOR('',#318,10.);
#86=VECTOR('',#319,10.);
#87=VECTOR('',#320,10.);
#88=VECTOR('',#323,10.);
#89=VECTOR('',#324,10.);
#90=VECTOR('',#325,10.);
#91=VECTOR('',#328,10.);
#92=VECTOR('',#329,10.);
#93=VECTOR('',#330,10.);
#94=VECTOR('',#337,10.);
#95=VECTOR('',#340,10.);
#96=VECTOR('',#341,10.);
#97=VECTOR('',#342,10.);
#98=VECTOR('',#349,10.);
#99=VECTOR('',#352,10.);
#100=VECTOR('',#353,10.);
#101=VECTOR('',#354,10.);
#102=VECTOR('',#361,10.);
#103=VECTOR('',#364,10.);
#104=VECTOR('',#365,10.);
#105=CIRCLE('',#271,1.5);
#106=CIRCLE('',#272,1.5);
#107=CIRCLE('',#275,1.5);
#108=CIRCLE('',#276,1.5);
#109=CIRCLE('',#282,30.);
#110=CIRCLE('',#283,30.);
#111=CIRCLE('',#286,16.15);
#112=CIRCLE('',#287,16.15);
#113=CIRCLE('',#290,16.15);
#114=CIRCLE('',#291,16.15);
#115=VERTEX_POINT('',#372);
#116=VERTEX_POINT('',#374);
#117=VERTEX_POINT('',#379);
#118=VERTEX_POINT('',#381);
#119=VERTEX_POINT('',#386);
#120=VERTEX_POINT('',#387);
#121=VERTEX_POINT('',#389);
#122=VERTEX_POINT('',#391);
#123=VERTEX_POINT('',#395);
#124=VERTEX_POINT('',#397);
#125=VERTEX_POINT('',#401);
#126=VERTEX_POINT('',#403);
#127=VERTEX_POINT('',#407);
#128=VERTEX_POINT('',#409);
#129=VERTEX_POINT('',#413);
#130=VERTEX_POINT('',#415);
#131=VERTEX_POINT('',#419);
#132=VERTEX_POINT('',#421);
#133=VERTEX_POINT('',#425);
#134=VERTEX_POINT('',#427);
#135=VERTEX_POINT('',#431);
#136=VERTEX_POINT('',#433);
#137=EDGE_CURVE('',#115,#115,#105,.T.);
#138=EDGE_CURVE('',#115,#116,#59,.T.);
#139=EDGE_CURVE('',#116,#116,#106,.T.);
#140=EDGE_CURVE('',#117,#117,#107,.T.);
#141=EDGE_CURVE('',#117,#118,#60,.T.);
#142=EDGE_CURVE('',#118,#118,#108,.T.);
#143=EDGE_CURVE('',#119,#120,#61,.T.);
#144=EDGE_CURVE('',#119,#121,#62,.T.);
#145=EDGE_CURVE('',#122,#121,#63,.T.);
#146=EDGE_CURVE('',#120,#122,#64,.T.);
#147=EDGE_CURVE('',#123,#120,#65,.T.);
#148=EDGE_CURVE('',#124,#122,#66,.T.);
#149=EDGE_CURVE('',#123,#124,#67,.T.);
#150=EDGE_CURVE('',#125,#123,#68,.T.);
#151=EDGE_CURVE('',#126,#124,#69,.T.);
#152=EDGE_CURVE('',#125,#126,#70,.T.);
#153=EDGE_CURVE('',#127,#125,#109,.T.);
#154=EDGE_CURVE('',#128,#126,#110,.T.);
#155=EDGE_CURVE('',#127,#128,#71,.T.);
#156=EDGE_CURVE('',#129,#127,#72,.T.);
#157=EDGE_CURVE('',#130,#128,#73,.T.);
#158=EDGE_CURVE('',#129,#130,#74,.T.);
#159=EDGE_CURVE('',#129,#131,#111,.T.);
#160=EDGE_CURVE('',#132,#130,#112,.T.);
#161=EDGE_CURVE('',#131,#132,#75,.T.);
#162=EDGE_CURVE('',#133,#131,#76,.T.);
#163=EDGE_CURVE('',#134,#132,#77,.T.);
#164=EDGE_CURVE('',#133,#134,#78,.T.);
#165=EDGE_CURVE('',#133,#135,#113,.T.);
#166=EDGE_CURVE('',#136,#134,#114,.T.);
#167=EDGE_CURVE('',#135,#136,#79,.T.);
#168=EDGE_CURVE('',#119,#135,#80,.T.);
#169=EDGE_CURVE('',#121,#136,#81,.T.);
#170=ORIENTED_EDGE('',*,*,#137,.F.);
#171=ORIENTED_EDGE('',*,*,#138,.T.);
#172=ORIENTED_EDGE('',*,*,#139,.T.);
#173=ORIENTED_EDGE('',*,*,#138,.F.);
#174=ORIENTED_EDGE('',*,*,#139,.F.);
#175=ORIENTED_EDGE('',*,*,#140,.F.);
#176=ORIENTED_EDGE('',*,*,#141,.T.);
#177=ORIENTED_EDGE('',*,*,#142,.T.);
#178=ORIENTED_EDGE('',*,*,#141,.F.);
#179=ORIENTED_EDGE('',*,*,#142,.F.);
#180=ORIENTED_EDGE('',*,*,#143,.F.);
#181=ORIENTED_EDGE('',*,*,#144,.T.);
#182=ORIENTED_EDGE('',*,*,#145,.F.);
#183=ORIENTED_EDGE('',*,*,#146,.F.);
#184=ORIENTED_EDGE('',*,*,#137,.T.);
#185=ORIENTED_EDGE('',*,*,#140,.T.);
#186=ORIENTED_EDGE('',*,*,#147,.T.);
#187=ORIENTED_EDGE('',*,*,#146,.T.);
#188=ORIENTED_EDGE('',*,*,#148,.F.);
#189=ORIENTED_EDGE('',*,*,#149,.F.);
#190=ORIENTED_EDGE('',*,*,#150,.T.);
#191=ORIENTED_EDGE('',*,*,#149,.T.);
#192=ORIENTED_EDGE('',*,*,#151,.F.);
#193=ORIENTED_EDGE('',*,*,#152,.F.);
#194=ORIENTED_EDGE('',*,*,#153,.T.);
#195=ORIENTED_EDGE('',*,*,#152,.T.);
#196=ORIENTED_EDGE('',*,*,#154,.F.);
#197=ORIENTED_EDGE('',*,*,#155,.F.);
#198=ORIENTED_EDGE('',*,*,#156,.T.);
#199=ORIENTED_EDGE('',*,*,#155,.T.);
#200=ORIENTED_EDGE('',*,*,#157,.F.);
#201=ORIENTED_EDGE('',*,*,#158,.F.);
#202=ORIENTED_EDGE('',*,*,#159,.F.);
#203=ORIENTED_EDGE('',*,*,#158,.T.);
#204=ORIENTED_EDGE('',*,*,#160,.F.);
#205=ORIENTED_EDGE('',*,*,#161,.F.);
#206=ORIENTED_EDGE('',*,*,#162,.T.);
#207=ORIENTED_EDGE('',*,*,#161,.T.);
#208=ORIENTED_EDGE('',*,*,#163,.F.);
#209=ORIENTED_EDGE('',*,*,#164,.F.);
#210=ORIENTED_EDGE('',*,*,#165,.F.);
#211=ORIENTED_EDGE('',*,*,#164,.T.);
#212=ORIENTED_EDGE('',*,*,#166,.F.);
#213=ORIENTED_EDGE('',*,*,#167,.F.);
#214=ORIENTED_EDGE('',*,*,#168,.T.);
#215=ORIENTED_EDGE('',*,*,#167,.T.);
#216=ORIENTED_EDGE('',*,*,#169,.F.);
#217=ORIENTED_EDGE('',*,*,#144,.F.);
#218=ORIENTED_EDGE('',*,*,#169,.T.);
#219=ORIENTED_EDGE('',*,*,#166,.T.);
#220=ORIENTED_EDGE('',*,*,#163,.T.);
#221=ORIENTED_EDGE('',*,*,#160,.T.);
#222=ORIENTED_EDGE('',*,*,#157,.T.);
#223=ORIENTED_EDGE('',*,*,#154,.T.);
#224=ORIENTED_EDGE('',*,*,#151,.T.);
#225=ORIENTED_EDGE('',*,*,#148,.T.);
#226=ORIENTED_EDGE('',*,*,#145,.T.);
#227=ORIENTED_EDGE('',*,*,#168,.F.);
#228=ORIENTED_EDGE('',*,*,#143,.T.);
#229=ORIENTED_EDGE('',*,*,#147,.F.);
#230=ORIENTED_EDGE('',*,*,#150,.F.);
#231=ORIENTED_EDGE('',*,*,#153,.F.);
#232=ORIENTED_EDGE('',*,*,#156,.F.);
#233=ORIENTED_EDGE('',*,*,#159,.T.);
#234=ORIENTED_EDGE('',*,*,#162,.F.);
#235=ORIENTED_EDGE('',*,*,#165,.T.);
#236=CYLINDRICAL_SURFACE('',#270,1.5);
#237=CYLINDRICAL_SURFACE('',#274,1.5);
#238=CYLINDRICAL_SURFACE('',#281,30.);
#239=CYLINDRICAL_SURFACE('',#285,16.15);
#240=CYLINDRICAL_SURFACE('',#289,16.15);
#241=ADVANCED_FACE('',(#27),#236,.F.);
#242=ADVANCED_FACE('',(#28),#17,.T.);
#243=ADVANCED_FACE('',(#29),#237,.F.);
#244=ADVANCED_FACE('',(#30),#18,.T.);
#245=ADVANCED_FACE('',(#31,#15,#16),#19,.T.);
#246=ADVANCED_FACE('',(#32),#20,.T.);
#247=ADVANCED_FACE('',(#33),#21,.T.);
#248=ADVANCED_FACE('',(#34),#238,.T.);
#249=ADVANCED_FACE('',(#35),#22,.T.);
#250=ADVANCED_FACE('',(#36),#239,.F.);
#251=ADVANCED_FACE('',(#37),#23,.T.);
#252=ADVANCED_FACE('',(#38),#240,.F.);
#253=ADVANCED_FACE('',(#39),#24,.T.);
#254=ADVANCED_FACE('',(#40),#25,.T.);
#255=ADVANCED_FACE('',(#41),#26,.F.);
#256=CLOSED_SHELL('',(#241,#242,#243,#244,#245,#246,#247,#248,#249,#250,
#251,#252,#253,#254,#255));
#257=DERIVED_UNIT_ELEMENT(#259,1.);
#258=DERIVED_UNIT_ELEMENT(#446,-3.);
#259=(
MASS_UNIT()
NAMED_UNIT(*)
SI_UNIT(.KILO.,.GRAM.)
);
#260=DERIVED_UNIT((#257,#258));
#261=MEASURE_REPRESENTATION_ITEM('density measure',
POSITIVE_RATIO_MEASURE(7850.),#260);
#262=PROPERTY_DEFINITION_REPRESENTATION(#267,#264);
#263=PROPERTY_DEFINITION_REPRESENTATION(#268,#265);
#264=REPRESENTATION('material name',(#266),#443);
#265=REPRESENTATION('density',(#261),#443);
#266=DESCRIPTIVE_REPRESENTATION_ITEM('Steel','Steel');
#267=PROPERTY_DEFINITION('material property','material name',#453);
#268=PROPERTY_DEFINITION('material property','density of part',#453);
#269=AXIS2_PLACEMENT_3D('placement',#370,#295,#296);
#270=AXIS2_PLACEMENT_3D('',#371,#297,#298);
#271=AXIS2_PLACEMENT_3D('',#373,#299,#300);
#272=AXIS2_PLACEMENT_3D('',#376,#302,#303);
#273=AXIS2_PLACEMENT_3D('',#377,#304,#305);
#274=AXIS2_PLACEMENT_3D('',#378,#306,#307);
#275=AXIS2_PLACEMENT_3D('',#380,#308,#309);
#276=AXIS2_PLACEMENT_3D('',#383,#311,#312);
#277=AXIS2_PLACEMENT_3D('',#384,#313,#314);
#278=AXIS2_PLACEMENT_3D('',#385,#315,#316);
#279=AXIS2_PLACEMENT_3D('',#394,#321,#322);
#280=AXIS2_PLACEMENT_3D('',#400,#326,#327);
#281=AXIS2_PLACEMENT_3D('',#406,#331,#332);
#282=AXIS2_PLACEMENT_3D('',#408,#333,#334);
#283=AXIS2_PLACEMENT_3D('',#410,#335,#336);
#284=AXIS2_PLACEMENT_3D('',#412,#338,#339);
#285=AXIS2_PLACEMENT_3D('',#418,#343,#344);
#286=AXIS2_PLACEMENT_3D('',#420,#345,#346);
#287=AXIS2_PLACEMENT_3D('',#422,#347,#348);
#288=AXIS2_PLACEMENT_3D('',#424,#350,#351);
#289=AXIS2_PLACEMENT_3D('',#430,#355,#356);
#290=AXIS2_PLACEMENT_3D('',#432,#357,#358);
#291=AXIS2_PLACEMENT_3D('',#434,#359,#360);
#292=AXIS2_PLACEMENT_3D('',#436,#362,#363);
#293=AXIS2_PLACEMENT_3D('',#439,#366,#367);
#294=AXIS2_PLACEMENT_3D('',#440,#368,#369);
#295=DIRECTION('axis',(0.,0.,1.));
#296=DIRECTION('refdir',(1.,0.,0.));
#297=DIRECTION('center_axis',(1.,-8.95010561390126E-14,0.));
#298=DIRECTION('ref_axis',(-8.95010561390126E-14,-1.,0.));
#299=DIRECTION('center_axis',(1.,-1.43775870640859E-13,0.));
#300=DIRECTION('ref_axis',(-8.95010561390126E-14,-1.,0.));
#301=DIRECTION('',(1.,-8.95010561390126E-14,0.));
#302=DIRECTION('center_axis',(1.,-8.96890133274627E-14,0.));
#303=DIRECTION('ref_axis',(-8.96890133274627E-14,-1.,0.));
#304=DIRECTION('center_axis',(-1.,8.96890133274627E-14,0.));
#305=DIRECTION('ref_axis',(-8.96890133274627E-14,-1.,0.));
#306=DIRECTION('center_axis',(1.,-8.98426632235127E-14,0.));
#307=DIRECTION('ref_axis',(-8.98426632235126E-14,-1.,0.));
#308=DIRECTION('center_axis',(1.,-1.43775870640859E-13,0.));
#309=DIRECTION('ref_axis',(-8.98426632235126E-14,-1.,0.));
#310=DIRECTION('',(1.,-8.98426632235126E-14,0.));
#311=DIRECTION('center_axis',(1.,-8.96890133274627E-14,0.));
#312=DIRECTION('ref_axis',(-8.96890133274627E-14,-1.,0.));
#313=DIRECTION('center_axis',(-1.,8.96890133274627E-14,0.));
#314=DIRECTION('ref_axis',(-8.96890133274627E-14,-1.,0.));
#315=DIRECTION('center_axis',(-1.,1.43775870640859E-13,0.));
#316=DIRECTION('ref_axis',(-1.43775870640859E-13,-1.,0.));
#317=DIRECTION('',(1.43775870640859E-13,1.,0.));
#318=DIRECTION('',(0.,0.,1.));
#319=DIRECTION('',(-1.43775870640859E-13,-1.,0.));
#320=DIRECTION('',(0.,0.,1.));
#321=DIRECTION('center_axis',(0.430032849962838,0.902813240904695,0.));
#322=DIRECTION('ref_axis',(-0.902813240904695,0.430032849962838,0.));
#323=DIRECTION('',(-0.902813240904695,0.430032849962838,0.));
#324=DIRECTION('',(-0.902813240904695,0.430032849962838,0.));
#325=DIRECTION('',(0.,0.,1.));
#326=DIRECTION('center_axis',(1.,5.5428665542723E-13,0.));
#327=DIRECTION('ref_axis',(-5.5428665542723E-13,1.,0.));
#328=DIRECTION('',(-5.5428665542723E-13,1.,0.));
#329=DIRECTION('',(-5.5428665542723E-13,1.,0.));
#330=DIRECTION('',(0.,0.,1.));
#331=DIRECTION('center_axis',(0.,0.,1.));
#332=DIRECTION('ref_axis',(1.,0.,0.));
#333=DIRECTION('center_axis',(0.,0.,1.));
#334=DIRECTION('ref_axis',(1.,0.,0.));
#335=DIRECTION('center_axis',(0.,0.,1.));
#336=DIRECTION('ref_axis',(1.,0.,0.));
#337=DIRECTION('',(0.,0.,1.));
#338=DIRECTION('center_axis',(-0.520539973922437,-0.853837300396761,0.));
#339=DIRECTION('ref_axis',(0.853837300396761,-0.520539973922437,0.));
#340=DIRECTION('',(0.853837300396761,-0.520539973922437,0.));
#341=DIRECTION('',(0.853837300396761,-0.520539973922437,0.));
#342=DIRECTION('',(0.,0.,1.));
#343=DIRECTION('center_axis',(0.,0.,1.));
#344=DIRECTION('ref_axis',(1.,0.,0.));
#345=DIRECTION('center_axis',(0.,0.,1.));
#346=DIRECTION('ref_axis',(1.,0.,0.));
#347=DIRECTION('center_axis',(0.,0.,-1.));
#348=DIRECTION('ref_axis',(1.,0.,0.));
#349=DIRECTION('',(0.,0.,1.));
#350=DIRECTION('center_axis',(-0.99998394336796,-0.00566683388367391,0.));
#351=DIRECTION('ref_axis',(0.00566683388367391,-0.99998394336796,0.));
#352=DIRECTION('',(0.00566683388367391,-0.99998394336796,0.));
#353=DIRECTION('',(0.00566683388367391,-0.99998394336796,0.));
#354=DIRECTION('',(0.,0.,1.));
#355=DIRECTION('center_axis',(0.,0.,1.));
#356=DIRECTION('ref_axis',(1.,0.,0.));
#357=DIRECTION('center_axis',(0.,0.,1.));
#358=DIRECTION('ref_axis',(1.,0.,0.));
#359=DIRECTION('center_axis',(0.,0.,-1.));
#360=DIRECTION('ref_axis',(1.,0.,0.));
#361=DIRECTION('',(0.,0.,1.));
#362=DIRECTION('center_axis',(7.48918563255905E-14,-1.,0.));
#363=DIRECTION('ref_axis',(1.,7.48918563255905E-14,0.));
#364=DIRECTION('',(1.,7.48918563255905E-14,0.));
#365=DIRECTION('',(1.,7.48918563255905E-14,0.));
#366=DIRECTION('center_axis',(0.,0.,1.));
#367=DIRECTION('ref_axis',(1.,0.,0.));
#368=DIRECTION('center_axis',(0.,0.,1.));
#369=DIRECTION('ref_axis',(1.,0.,0.));
#370=CARTESIAN_POINT('',(0.,0.,0.));
#371=CARTESIAN_POINT('Origin',(23.7406955316367,84.1006926692557,15.));
#372=CARTESIAN_POINT('',(23.7406955316368,85.6006926692557,15.));
#373=CARTESIAN_POINT('Origin',(23.7406955316422,84.1006926692557,15.));
#374=CARTESIAN_POINT('',(49.7406955316368,85.6006926692534,15.));
#375=CARTESIAN_POINT('',(23.7406955316368,85.6006926692557,15.));
#376=CARTESIAN_POINT('Origin',(49.7406955316367,84.1006926692534,15.));
#377=CARTESIAN_POINT('Origin',(49.7406955316367,84.1006926692534,15.));
#378=CARTESIAN_POINT('Origin',(23.7406955316346,60.7013290156082,15.));
#379=CARTESIAN_POINT('',(23.7406955316347,62.2013290156082,15.));
#380=CARTESIAN_POINT('Origin',(23.7406955316401,60.7013290156082,15.));
#381=CARTESIAN_POINT('',(49.7406955316347,62.2013290156059,15.));
#382=CARTESIAN_POINT('',(23.7406955316347,62.2013290156082,15.));
#383=CARTESIAN_POINT('Origin',(49.7406955316346,60.7013290156058,15.));
#384=CARTESIAN_POINT('Origin',(49.7406955316346,60.7013290156058,15.));
#385=CARTESIAN_POINT('Origin',(23.7406955316438,102.230229409411,0.));
#386=CARTESIAN_POINT('',(23.7406955316437,38.0870997247024,0.));
#387=CARTESIAN_POINT('',(23.7406955316438,102.230229409411,0.));
#388=CARTESIAN_POINT('',(23.7406955316317,17.6908583771346,0.));
#389=CARTESIAN_POINT('',(23.7406955316437,38.0870997247024,30.));
#390=CARTESIAN_POINT('',(23.7406955316437,38.0870997247024,0.));
#391=CARTESIAN_POINT('',(23.7406955316438,102.230229409411,30.));
#392=CARTESIAN_POINT('',(23.7406955316317,17.6908583771346,30.));
#393=CARTESIAN_POINT('',(23.7406955316438,102.230229409411,0.));
#394=CARTESIAN_POINT('Origin',(69.8906955316043,80.2478136377058,0.));
#395=CARTESIAN_POINT('',(69.8906955316043,80.2478136377058,0.));
#396=CARTESIAN_POINT('',(69.8906955316043,80.2478136377058,0.));
#397=CARTESIAN_POINT('',(69.8906955316043,80.2478136377058,30.));
#398=CARTESIAN_POINT('',(69.8906955316043,80.2478136377058,30.));
#399=CARTESIAN_POINT('',(69.8906955316043,80.2478136377058,0.));
#400=CARTESIAN_POINT('Origin',(69.8906955316389,17.6908583771346,0.));
#401=CARTESIAN_POINT('',(69.8906955316389,17.6908583771346,0.));
#402=CARTESIAN_POINT('',(69.8906955316389,17.6908583771346,0.));
#403=CARTESIAN_POINT('',(69.8906955316389,17.6908583771346,30.));
#404=CARTESIAN_POINT('',(69.8906955316389,17.6908583771346,30.));
#405=CARTESIAN_POINT('',(69.8906955316389,17.6908583771346,0.));
#406=CARTESIAN_POINT('Origin',(39.8906955316376,17.6908583771346,0.));
#407=CARTESIAN_POINT('',(67.7313294260927,6.51503159094131,0.));
#408=CARTESIAN_POINT('Origin',(39.8906955316376,17.6908583771346,0.));
#409=CARTESIAN_POINT('',(67.7313294260927,6.51503159094131,30.));
#410=CARTESIAN_POINT('Origin',(39.8906955316376,17.6908583771346,30.));
#411=CARTESIAN_POINT('',(67.7313294260927,6.51503159094131,0.));
#412=CARTESIAN_POINT('Origin',(55.5931127356158,13.9150678702063,0.));
#413=CARTESIAN_POINT('',(55.5931127356158,13.9150678702063,0.));
#414=CARTESIAN_POINT('',(49.3997156195286,17.6908583771346,0.));
#415=CARTESIAN_POINT('',(55.5931127356158,13.9150678702063,30.));
#416=CARTESIAN_POINT('',(49.3997156195286,17.6908583771346,30.));
#417=CARTESIAN_POINT('',(55.5931127356158,13.9150678702063,0.));
#418=CARTESIAN_POINT('Origin',(39.8906955316376,17.6908583771346,0.));
#419=CARTESIAN_POINT('',(56.040436164882,17.7823869463766,0.));
#420=CARTESIAN_POINT('Origin',(39.8906955316376,17.6908583771346,0.));
#421=CARTESIAN_POINT('',(56.040436164882,17.7823869463766,30.));
#422=CARTESIAN_POINT('Origin',(39.8906955316376,17.6908583771346,30.));
#423=CARTESIAN_POINT('',(56.040436164882,17.7823869463766,0.));
#424=CARTESIAN_POINT('Origin',(55.9667673765412,30.7821690081705,0.));
#425=CARTESIAN_POINT('',(55.9667673765412,30.7821690081705,0.));
#426=CARTESIAN_POINT('',(55.9667673765412,30.7821690081705,0.));
#427=CARTESIAN_POINT('',(55.9667673765412,30.7821690081705,30.));
#428=CARTESIAN_POINT('',(55.9667673765412,30.7821690081705,30.));
#429=CARTESIAN_POINT('',(55.9667673765412,30.7821690081705,0.));
#430=CARTESIAN_POINT('Origin',(39.8170266911614,30.6906496409181,0.));
#431=CARTESIAN_POINT('',(25.4603200298886,38.0870997247025,0.));
#432=CARTESIAN_POINT('Origin',(39.8170266911614,30.6906496409181,0.));
#433=CARTESIAN_POINT('',(25.4603200298886,38.0870997247025,30.));
#434=CARTESIAN_POINT('Origin',(39.8170266911614,30.6906496409181,30.));
#435=CARTESIAN_POINT('',(25.4603200298886,38.0870997247025,0.));
#436=CARTESIAN_POINT('Origin',(23.7406955316437,38.0870997247024,0.));
#437=CARTESIAN_POINT('',(23.7406955316437,38.0870997247024,0.));
#438=CARTESIAN_POINT('',(23.7406955316437,38.0870997247024,30.));
#439=CARTESIAN_POINT('Origin',(46.8156955316368,54.3726305001763,30.));
#440=CARTESIAN_POINT('Origin',(46.8156955316368,54.3726305001763,0.));
#441=UNCERTAINTY_MEASURE_WITH_UNIT(LENGTH_MEASURE(0.01),#445,
'DISTANCE_ACCURACY_VALUE',
'Maximum model space distance between geometric entities at asserted c
onnectivities');
#442=UNCERTAINTY_MEASURE_WITH_UNIT(LENGTH_MEASURE(0.01),#445,
'DISTANCE_ACCURACY_VALUE',
'Maximum model space distance between geometric entities at asserted c
onnectivities');
#443=(
GEOMETRIC_REPRESENTATION_CONTEXT(3)
GLOBAL_UNCERTAINTY_ASSIGNED_CONTEXT((#441))
GLOBAL_UNIT_ASSIGNED_CONTEXT((#445,#447,#448))
REPRESENTATION_CONTEXT('','3D')
);
#444=(
GEOMETRIC_REPRESENTATION_CONTEXT(3)
GLOBAL_UNCERTAINTY_ASSIGNED_CONTEXT((#442))
GLOBAL_UNIT_ASSIGNED_CONTEXT((#445,#447,#448))
REPRESENTATION_CONTEXT('','3D')
);
#445=(
LENGTH_UNIT()
NAMED_UNIT(*)
SI_UNIT(.MILLI.,.METRE.)
);
#446=(
LENGTH_UNIT()
NAMED_UNIT(*)
SI_UNIT($,.METRE.)
);
#447=(
NAMED_UNIT(*)
PLANE_ANGLE_UNIT()
SI_UNIT($,.RADIAN.)
);
#448=(
NAMED_UNIT(*)
SI_UNIT($,.STERADIAN.)
SOLID_ANGLE_UNIT()
);
#449=SHAPE_DEFINITION_REPRESENTATION(#450,#451);
#450=PRODUCT_DEFINITION_SHAPE('',$,#453);
#451=SHAPE_REPRESENTATION('',(#269),#443);
#452=PRODUCT_DEFINITION_CONTEXT('part definition',#457,'design');
#453=PRODUCT_DEFINITION('Climbing wall hook','Climbing wall hook v6',#454,
#452);
#454=PRODUCT_DEFINITION_FORMATION('',$,#459);
#455=PRODUCT_RELATED_PRODUCT_CATEGORY('Climbing wall hook v6',
'Climbing wall hook v6',(#459));
#456=APPLICATION_PROTOCOL_DEFINITION('international standard',
'automotive_design',2009,#457);
#457=APPLICATION_CONTEXT(
'Core Data for Automotive Mechanical Design Process');
#458=PRODUCT_CONTEXT('part definition',#457,'mechanical');
#459=PRODUCT('Climbing wall hook','Climbing wall hook v6',$,(#458));
#460=PRESENTATION_STYLE_ASSIGNMENT((#461));
#461=SURFACE_STYLE_USAGE(.BOTH.,#462);
#462=SURFACE_SIDE_STYLE('',(#463));
#463=SURFACE_STYLE_FILL_AREA(#464);
#464=FILL_AREA_STYLE('Steel - Satin',(#465));
#465=FILL_AREA_STYLE_COLOUR('Steel - Satin',#466);
#466=COLOUR_RGB('Steel - Satin',0.627450980392157,0.627450980392157,0.627450980392157);
ENDSEC;
END-ISO-10303-21;
